0
SECTION
2
HEADER
9
$INSUNITS
70
4
9
$ACADVER
1
AC1014
9
$HANDSEED
5
FFFF
0
ENDSEC
0
SECTION
2
TABLES
0
TABLE
2
VPORT
5
8
100
AcDbSymbolTable
0
ENDTAB
0
TABLE
2
LTYPE
5
5
100
AcDbSymbolTable
0
LTYPE
5
14
100
AcDbSymbolTableRecord
100
AcDbLinetypeTableRecord
2
BYBLOCK
70
0
0
LTYPE
5
15
100
AcDbSymbolTableRecord
100
AcDbLinetypeTableRecord
2
BYLAYER
70
0
0
ENDTAB
0
TABLE
2
LAYER
5
2
100
AcDbSymbolTable
70
2
0
LAYER
5
50
100
AcDbSymbolTableRecord
100
AcDbLayerTableRecord
2
0
70
0
6
CONTINUOUS
0
ENDTAB
0
TABLE
2
STYLE
5
3
100
AcDbSymbolTable
70
1
0
STYLE
5
11
100
AcDbSymbolTableRecord
100
AcDbTextStyleTableRecord
2
STANDARD
70
0
0
ENDTAB
0
TABLE
2
VIEW
5
6
100
AcDbSymbolTable
70
0
0
ENDTAB
0
TABLE
2
UCS
5
7
100
AcDbSymbolTable
70
0
0
ENDTAB
0
TABLE
2
APPID
5
9
100
AcDbSymbolTable
70
2
0
APPID
5
12
100
AcDbSymbolTableRecord
100
AcDbRegAppTableRecord
2
ACAD
70
0
0
ENDTAB
0
TABLE
2
DIMSTYLE
5
A
100
AcDbSymbolTable
70
1
0
ENDTAB
0
TABLE
2
BLOCK_RECORD
5
1
100
AcDbSymbolTable
70
1
0
BLOCK_RECORD
5
1F
100
AcDbSymbolTableRecord
100
AcDbBlockTableRecord
2
*MODEL_SPACE
0
BLOCK_RECORD
5
1B
100
AcDbSymbolTableRecord
100
AcDbBlockTableRecord
2
*PAPER_SPACE
0
ENDTAB
0
ENDSEC
0
SECTION
2
BLOCKS
0
BLOCK
5
20
100
AcDbEntity
100
AcDbBlockBegin
2
*MODEL_SPACE
0
ENDBLK
5
21
100
AcDbEntity
100
AcDbBlockEnd
0
BLOCK
5
1C
100
AcDbEntity
100
AcDbBlockBegin
2
*PAPER_SPACE
0
ENDBLK
5
1D
100
AcDbEntity
100
AcDbBlockEnd
0
ENDSEC
0
SECTION
2
ENTITIES
0
LINE
5
100
100
AcDbEntity
8
0
100
AcDbLine
10
0
20
0
30
0
11
0
21
-15
31
0
0
LINE
5
101
100
AcDbEntity
8
0
100
AcDbLine
10
32.333333333333336
20
0
30
0
11
32.333333333333336
21
-15
31
0
0
LINE
5
102
100
AcDbEntity
8
0
100
AcDbLine
10
32.333333333333336
20
-15
30
0
11
27.333333333333336
21
-20
31
0
0
LINE
5
103
100
AcDbEntity
8
0
100
AcDbLine
10
0
20
-15
30
0
11
5.000000074505806
21
-20
31
0
0
LINE
5
104
100
AcDbEntity
8
0
100
AcDbLine
10
27.333333333333336
20
-20
30
0
11
5.000000074505806
21
-20
31
0
0
LINE
5
105
100
AcDbEntity
8
0
100
AcDbLine
10
32.333333333333336
20
0
30
0
11
66.666666666666686
21
0
31
0
0
LINE
5
106
100
AcDbEntity
8
0
100
AcDbLine
10
99.000000000000028
20
0
30
0
11
133.33333333333337
21
0
31
0
0
LINE
5
107
100
AcDbEntity
8
0
100
AcDbLine
10
94.000000000000028
20
-20
30
0
11
71.666666741172492
21
-20
31
0
0
LINE
5
108
100
AcDbEntity
8
0
100
AcDbLine
10
99.000000000000028
20
-15
30
0
11
94.000000000000028
21
-20
31
0
0
LINE
5
109
100
AcDbEntity
8
0
100
AcDbLine
10
66.666666666666686
20
-15
30
0
11
71.666666741172492
21
-20
31
0
0
LINE
5
110
100
AcDbEntity
8
0
100
AcDbLine
10
66.666666666666686
20
0
30
0
11
66.666666666666686
21
-15
31
0
0
LINE
5
111
100
AcDbEntity
8
0
100
AcDbLine
10
99.000000000000028
20
0
30
0
11
99.000000000000028
21
-15
31
0
0
LINE
5
112
100
AcDbEntity
8
0
100
AcDbLine
10
165.66666666666669
20
-15
30
0
11
160.66666666666669
21
-20
31
0
0
LINE
5
113
100
AcDbEntity
8
0
100
AcDbLine
10
160.66666666666669
20
-20
30
0
11
138.33333340783918
21
-20
31
0
0
LINE
5
114
100
AcDbEntity
8
0
100
AcDbLine
10
133.33333333333337
20
-15
30
0
11
138.33333340783918
21
-20
31
0
0
LINE
5
115
100
AcDbEntity
8
0
100
AcDbLine
10
133.33333333333337
20
0
30
0
11
133.33333333333337
21
-15
31
0
0
LINE
5
116
100
AcDbEntity
8
0
100
AcDbLine
10
165.66666666666669
20
0
30
0
11
200.00000000000003
21
0
31
0
0
LINE
5
117
100
AcDbEntity
8
0
100
AcDbLine
10
165.66666666666669
20
0
30
0
11
165.66666666666669
21
-15
31
0
0
LINE
5
118
100
AcDbEntity
8
0
100
AcDbLine
10
265.45966314587702
20
152.92310795060627
30
0
11
268.66986075547806
21
146.62274039725577
31
0
0
LINE
5
119
100
AcDbEntity
8
0
100
AcDbLine
10
268.66986075547806
20
146.62274039725577
30
0
11
261.76848123746112
21
125.38247827085655
31
0
0
LINE
5
120
100
AcDbEntity
8
0
100
AcDbLine
10
251.19381540144971
20
157.55836286623048
30
0
11
261.80339887498957
21
190.21130325903076
31
0
0
LINE
5
121
100
AcDbEntity
8
0
100
AcDbLine
10
255.46811366108705
20
122.17228059039628
30
0
11
261.76848123746112
21
125.38247827085655
31
0
0
LINE
5
122
100
AcDbEntity
8
0
100
AcDbLine
10
244.85853018754716
20
89.519340197596023
30
0
11
248.06872779714823
21
83.218972644245511
31
0
0
LINE
5
123
100
AcDbEntity
8
0
100
AcDbLine
10
220.60113295832991
20
63.40376775301025
30
0
11
234.86698070275722
21
58.768512837386041
31
0
0
LINE
5
124
100
AcDbEntity
8
0
100
AcDbLine
10
234.86698070275722
20
58.768512837386041
30
0
11
241.16734827913126
21
61.978710517846309
31
0
0
LINE
5
125
100
AcDbEntity
8
0
100
AcDbLine
10
241.20226591665977
20
126.8075355060205
30
0
11
255.46811366108705
21
122.17228059039628
31
0
0
LINE
5
126
100
AcDbEntity
8
0
100
AcDbLine
10
248.06872779714823
20
83.218972644245511
30
0
11
241.16734827913126
21
61.978710517846309
31
0
0
LINE
5
127
100
AcDbEntity
8
0
100
AcDbLine
10
251.19381540144971
20
157.55836286623048
30
0
11
265.45966314587702
21
152.92310795060627
31
0
0
LINE
5
128
100
AcDbEntity
8
0
100
AcDbLine
10
230.59268244311988
20
94.154595113220239
30
0
11
244.85853018754716
21
89.519340197596023
31
0
0
LINE
5
129
100
AcDbEntity
8
0
100
AcDbLine
10
230.59268244311988
20
94.154595113220239
30
0
11
241.20226591665977
21
126.8075355060205
31
0
0
LINE
5
130
100
AcDbEntity
8
0
100
AcDbLine
10
200.00000000000006
20
0
30
0
11
214.26584774442739
21
-4.6352549156242118
31
0
0
LINE
5
131
100
AcDbEntity
8
0
100
AcDbLine
10
209.99154948479003
20
30.750827360209971
30
0
11
224.25739722921733
21
26.115572444585759
31
0
0
LINE
5
132
100
AcDbEntity
8
0
100
AcDbLine
10
224.25739722921733
20
26.115572444585759
30
0
11
227.4675948388184
21
19.815204891235251
31
0
0
LINE
5
133
100
AcDbEntity
8
0
100
AcDbLine
10
214.26584774442739
20
-4.6352549156242118
30
0
11
220.56621532080143
21
-1.4250572351639486
31
0
0
LINE
5
134
100
AcDbEntity
8
0
100
AcDbLine
10
227.4675948388184
20
19.815204891235251
30
0
11
220.56621532080143
21
-1.4250572351639486
31
0
0
LINE
5
135
100
AcDbEntity
8
0
100
AcDbLine
10
209.99154948479003
20
30.750827360209971
30
0
11
220.60113295832991
21
63.40376775301025
31
0
0
LINE
5
136
100
AcDbEntity
8
0
100
AcDbLine
10
136.59302892459368
20
299.72298163777464
30
0
11
143.57704015793078
21
300.82914034818708
31
0
0
LINE
5
137
100
AcDbEntity
8
0
100
AcDbLine
10
143.57704015793078
20
300.82914034818708
30
0
11
161.64508630536147
21
287.70193642411522
31
0
0
LINE
5
138
100
AcDbEntity
8
0
100
AcDbLine
10
127.77625014020657
20
287.58772672215048
30
0
11
100.00000000000003
21
307.76835371752543
31
0
0
LINE
5
139
100
AcDbEntity
8
0
100
AcDbLine
10
162.75124507605031
20
280.71792514698467
30
0
11
161.64508630536147
21
287.70193642411522
31
0
0
LINE
5
140
100
AcDbEntity
8
0
100
AcDbLine
10
190.52749521625685
20
260.53729815160978
30
0
11
197.51150644959395
21
261.64345686202216
31
0
0
LINE
5
141
100
AcDbEntity
8
0
100
AcDbLine
10
207.86893258332637
20
229.39698674519562
30
0
11
216.68571136771348
21
241.53224166081984
31
0
0
LINE
5
142
100
AcDbEntity
8
0
100
AcDbLine
10
216.68571136771348
20
241.53224166081984
30
0
11
215.57955259702464
21
248.5162529379503
31
0
0
LINE
5
143
100
AcDbEntity
8
0
100
AcDbLine
10
153.93446629166323
20
268.58267023136051
30
0
11
162.75124507605031
21
280.71792514698467
31
0
0
LINE
5
144
100
AcDbEntity
8
0
100
AcDbLine
10
197.51150644959395
20
261.64345686202216
30
0
11
215.57955259702464
21
248.5162529379503
31
0
0
LINE
5
145
100
AcDbEntity
8
0
100
AcDbLine
10
127.77625014020657
20
287.58772672215048
30
0
11
136.59302892459368
21
299.72298163777464
31
0
0
LINE
5
146
100
AcDbEntity
8
0
100
AcDbLine
10
181.71071643186974
20
248.40204323598559
30
0
11
190.52749521625685
21
260.53729815160978
31
0
0
LINE
5
147
100
AcDbEntity
8
0
100
AcDbLine
10
181.71071643186974
20
248.40204323598559
30
0
11
153.93446629166323
21
268.58267023136051
31
0
0
LINE
5
148
100
AcDbEntity
8
0
100
AcDbLine
10
261.80339887498951
20
190.21130325903073
30
0
11
270.62017765937662
21
202.34655817465494
31
0
0
LINE
5
149
100
AcDbEntity
8
0
100
AcDbLine
10
235.64518272353291
20
209.2163597498207
30
0
11
244.46196150791997
21
221.35161466544488
31
0
0
LINE
5
150
100
AcDbEntity
8
0
100
AcDbLine
10
244.46196150791997
20
221.35161466544488
30
0
11
251.44597274125709
21
222.4577733758573
31
0
0
LINE
5
151
100
AcDbEntity
8
0
100
AcDbLine
10
270.62017765937662
20
202.34655817465494
30
0
11
269.51401888868781
21
209.33056945178546
31
0
0
LINE
5
152
100
AcDbEntity
8
0
100
AcDbLine
10
251.44597274125709
20
222.4577733758573
30
0
11
269.51401888868781
21
209.33056945178546
31
0
0
LINE
5
153
100
AcDbEntity
8
0
100
AcDbLine
10
235.64518272353291
20
209.2163597498207
30
0
11
207.86893258332637
21
229.39698674519562
31
0
0
LINE
5
154
100
AcDbEntity
8
0
100
AcDbLine
10
-42.843927519170073
20
222.5271851700299
30
0
11
-41.737768808757707
21
229.51119640336699
31
0
0
LINE
5
155
100
AcDbEntity
8
0
100
AcDbLine
10
-41.737768808757707
20
229.51119640336699
30
0
11
-23.669722661326986
21
242.63840032743883
31
0
0
LINE
5
156
100
AcDbEntity
8
0
100
AcDbLine
10
-34.027148734782969
20
210.39193025440568
30
0
11
-61.803398874989512
21
190.21130325903079
31
0
0
LINE
5
157
100
AcDbEntity
8
0
100
AcDbLine
10
-16.685711367713427
20
241.53224166081986
30
0
11
-23.669722661326986
21
242.63840032743883
31
0
0
LINE
5
158
100
AcDbEntity
8
0
100
AcDbLine
10
11.090538772493108
20
261.71286865619481
30
0
11
12.196697482905492
21
268.69687988953189
31
0
0
LINE
5
159
100
AcDbEntity
8
0
100
AcDbLine
10
46.065533708336865
20
268.58267023136051
30
0
11
37.248754923949775
21
280.71792514698473
31
0
0
LINE
5
160
100
AcDbEntity
8
0
100
AcDbLine
10
37.248754923949775
20
280.71792514698473
30
0
11
30.264743630336206
21
281.82408381360369
31
0
0
LINE
5
161
100
AcDbEntity
8
0
100
AcDbLine
10
-7.8689325833263268
20
229.39698674519565
30
0
11
-16.685711367713427
21
241.53224166081986
31
0
0
LINE
5
162
100
AcDbEntity
8
0
100
AcDbLine
10
12.196697482905492
20
268.69687988953189
30
0
11
30.264743630336206
21
281.82408381360369
31
0
0
LINE
5
163
100
AcDbEntity
8
0
100
AcDbLine
10
-34.027148734782969
20
210.39193025440568
30
0
11
-42.843927519170073
21
222.5271851700299
31
0
0
LINE
5
164
100
AcDbEntity
8
0
100
AcDbLine
10
19.907317556880209
20
249.57761374057057
30
0
11
11.090538772493108
21
261.71286865619481
31
0
0
LINE
5
165
100
AcDbEntity
8
0
100
AcDbLine
10
19.907317556880209
20
249.57761374057057
30
0
11
-7.8689325833263268
21
229.39698674519565
31
0
0
LINE
5
166
100
AcDbEntity
8
0
100
AcDbLine
10
100.00000000000006
20
307.76835371752543
30
0
11
91.183221215612946
21
319.90360863314959
31
0
0
LINE
5
167
100
AcDbEntity
8
0
100
AcDbLine
10
73.8417838485434
20
288.7632972267354
30
0
11
65.025005064156304
21
300.89855214235962
31
0
0
LINE
5
168
100
AcDbEntity
8
0
100
AcDbLine
10
65.025005064156304
20
300.89855214235962
30
0
11
66.131163774568691
21
307.8825633756968
31
0
0
LINE
5
169
100
AcDbEntity
8
0
100
AcDbLine
10
91.183221215612946
20
319.90360863314959
30
0
11
84.199209921999397
21
321.00976729976855
31
0
0
LINE
5
170
100
AcDbEntity
8
0
100
AcDbLine
10
66.131163774568691
20
307.8825633756968
30
0
11
84.199209921999397
21
321.00976729976855
31
0
0
LINE
5
171
100
AcDbEntity
8
0
100
AcDbLine
10
73.8417838485434
20
288.7632972267354
30
0
11
46.065533708336865
21
268.58267023136051
31
0
0
LINE
5
172
100
AcDbEntity
8
0
100
AcDbLine
10
-24.87543121796719
20
28.017685477176109
30
0
11
-31.175798771317702
21
31.227883086777126
31
0
0
LINE
5
173
100
AcDbEntity
8
0
100
AcDbLine
10
-31.175798771317702
20
31.227883086777126
30
0
11
-38.077178289334626
21
52.468145213176349
31
0
0
LINE
5
174
100
AcDbEntity
8
0
100
AcDbLine
10
-10.609583473539885
20
32.652940392800303
30
0
11
-3.5527136788005009e-14
21
3.5527136788005009e-14
31
0
0
LINE
5
175
100
AcDbEntity
8
0
100
AcDbLine
10
-34.866980702757154
20
58.768512837386098
30
0
11
-38.077178289334626
21
52.468145213176349
31
0
0
LINE
5
176
100
AcDbEntity
8
0
100
AcDbLine
10
-45.476564176297003
20
91.421453230186373
30
0
11
-51.776931729647515
21
94.631650839787383
31
0
0
LINE
5
177
100
AcDbEntity
8
0
100
AcDbLine
10
-41.20226591665967
20
126.80753550602056
30
0
11
-55.468113661086974
21
122.17228059039634
31
0
0
LINE
5
178
100
AcDbEntity
8
0
100
AcDbLine
10
-55.468113661086974
20
122.17228059039634
30
0
11
-58.678311247664432
21
115.87191296618658
31
0
0
LINE
5
179
100
AcDbEntity
8
0
100
AcDbLine
10
-20.601132958329849
20
63.4037677530103
30
0
11
-34.866980702757154
21
58.768512837386098
31
0
0
LINE
5
180
100
AcDbEntity
8
0
100
AcDbLine
10
-51.776931729647515
20
94.631650839787383
30
0
11
-58.678311247664432
21
115.87191296618658
31
0
0
LINE
5
181
100
AcDbEntity
8
0
100
AcDbLine
10
-10.609583473539885
20
32.652940392800303
30
0
11
-24.87543121796719
21
28.017685477176109
31
0
0
LINE
5
182
100
AcDbEntity
8
0
100
AcDbLine
10
-31.210716431869699
20
96.056708145810575
30
0
11
-45.476564176297003
21
91.421453230186373
31
0
0
LINE
5
183
100
AcDbEntity
8
0
100
AcDbLine
10
-31.210716431869699
20
96.056708145810575
30
0
11
-20.601132958329849
21
63.4037677530103
31
0
0
LINE
5
184
100
AcDbEntity
8
0
100
AcDbLine
10
-61.803398874989469
20
190.21130325903079
30
0
11
-76.069246619416774
21
185.57604834340657
31
0
0
LINE
5
185
100
AcDbEntity
8
0
100
AcDbLine
10
-51.811849390199512
20
159.46047589882082
30
0
11
-66.077697134626817
21
154.82522098319663
31
0
0
LINE
5
186
100
AcDbEntity
8
0
100
AcDbLine
10
-66.077697134626817
20
154.82522098319663
30
0
11
-72.378064687977314
21
158.03541859279764
31
0
0
LINE
5
187
100
AcDbEntity
8
0
100
AcDbLine
10
-76.069246619416774
20
185.57604834340657
30
0
11
-79.279444205994253
21
179.27568071919688
31
0
0
LINE
5
188
100
AcDbEntity
8
0
100
AcDbLine
10
-72.378064687977314
20
158.03541859279764
30
0
11
-79.279444205994253
21
179.27568071919688
31
0
0
LINE
5
189
100
AcDbEntity
8
0
100
AcDbLine
10
-51.811849390199512
20
159.46047589882082
30
0
11
-41.20226591665967
21
126.80753550602056
31
0
0
LWPOLYLINE
5
190
100
AcDbEntity
8
0
100
AcDbPolyline
90
5
70
1
43
0.0
10
-23.63734711836992
20
177.81040131586053
10
100.00000000000001
20
267.6381920471174
10
223.63734711836992
20
177.81040131586053
10
176.41208279802152
20
32.465982778374268
10
23.587917201978534
20
32.465982778374268
0
ENDSEC
0
SECTION
2
OBJECTS
0
DICTIONARY
5
C
100
AcDbDictionary
3
ACAD_GROUP
350
D
3
ACAD_MLINESTYLE
350
17
0
DICTIONARY
5
D
100
AcDbDictionary
0
DICTIONARY
5
1A
330
C
100
AcDbDictionary
0
DICTIONARY
5
17
100
AcDbDictionary
0
ENDSEC
0
EOF
